ISO-10303-21;
HEADER;
/* Generated by software containing ST-Developer
 * from STEP Tools, Inc. (www.steptools.com) 
 */

FILE_DESCRIPTION(
/* description */ (''),
/* implementation_level */ '2;1');

FILE_NAME(
/* name */ 'SAH_50_C_N.dxf',
/* time_stamp */ '2012-11-23T16:47:55+08:00',
/* author */ (''),
/* organization */ (''),
/* preprocessor_version */ 'ST-DEVELOPER v9',
/* originating_system */ 'UGS - NX 4.0',
/* authorisation */ '');

FILE_SCHEMA (('CONFIG_CONTROL_DESIGN'));
ENDSEC;

DATA;
#10=SHAPE_REPRESENTATION_RELATIONSHIP('None',
'relationship between Admi8F1Axn3o-None and Admi8F1Axn3o-None',#94,#11);
#11=ADVANCED_BREP_SHAPE_REPRESENTATION('Admi8F1Axn3o-None',(#95),#405);
#12=CC_DESIGN_APPROVAL(#24,(#82));
#13=CC_DESIGN_APPROVAL(#25,(#84));
#14=CC_DESIGN_APPROVAL(#26,(#31));
#15=APPROVAL_PERSON_ORGANIZATION(#69,#24,#18);
#16=APPROVAL_PERSON_ORGANIZATION(#70,#25,#19);
#17=APPROVAL_PERSON_ORGANIZATION(#71,#26,#20);
#18=APPROVAL_ROLE('approver');
#19=APPROVAL_ROLE('approver');
#20=APPROVAL_ROLE('approver');
#21=APPROVAL_DATE_TIME(#39,#24);
#22=APPROVAL_DATE_TIME(#40,#25);
#23=APPROVAL_DATE_TIME(#41,#26);
#24=APPROVAL(#27,' ');
#25=APPROVAL(#28,' ');
#26=APPROVAL(#29,' ');
#27=APPROVAL_STATUS('not_yet_approved');
#28=APPROVAL_STATUS('not_yet_approved');
#29=APPROVAL_STATUS('not_yet_approved');
#30=CC_DESIGN_SECURITY_CLASSIFICATION(#31,(#84));
#31=SECURITY_CLASSIFICATION(' ',' ',#32);
#32=SECURITY_CLASSIFICATION_LEVEL('confidential');
#33=CC_DESIGN_DATE_AND_TIME_ASSIGNMENT(#37,#35,(#82));
#34=CC_DESIGN_DATE_AND_TIME_ASSIGNMENT(#38,#36,(#31));
#35=DATE_TIME_ROLE('creation_date');
#36=DATE_TIME_ROLE('classification_date');
#37=DATE_AND_TIME(#52,#42);
#38=DATE_AND_TIME(#53,#43);
#39=DATE_AND_TIME(#54,#44);
#40=DATE_AND_TIME(#55,#45);
#41=DATE_AND_TIME(#56,#46);
#42=LOCAL_TIME(0,0,0.,#47);
#43=LOCAL_TIME(0,0,0.,#48);
#44=LOCAL_TIME(0,0,0.,#49);
#45=LOCAL_TIME(0,0,0.,#50);
#46=LOCAL_TIME(0,0,0.,#51);
#47=COORDINATED_UNIVERSAL_TIME_OFFSET(0,0,.BEHIND.);
#48=COORDINATED_UNIVERSAL_TIME_OFFSET(0,0,.BEHIND.);
#49=COORDINATED_UNIVERSAL_TIME_OFFSET(0,0,.BEHIND.);
#50=COORDINATED_UNIVERSAL_TIME_OFFSET(0,0,.BEHIND.);
#51=COORDINATED_UNIVERSAL_TIME_OFFSET(0,0,.BEHIND.);
#52=CALENDAR_DATE(0,1,1);
#53=CALENDAR_DATE(0,1,1);
#54=CALENDAR_DATE(0,1,1);
#55=CALENDAR_DATE(0,1,1);
#56=CALENDAR_DATE(0,1,1);
#57=CC_DESIGN_PERSON_AND_ORGANIZATION_ASSIGNMENT(#65,#61,(#82,#84));
#58=CC_DESIGN_PERSON_AND_ORGANIZATION_ASSIGNMENT(#66,#62,(#86));
#59=CC_DESIGN_PERSON_AND_ORGANIZATION_ASSIGNMENT(#67,#63,(#84));
#60=CC_DESIGN_PERSON_AND_ORGANIZATION_ASSIGNMENT(#68,#64,(#31));
#61=PERSON_AND_ORGANIZATION_ROLE('creator');
#62=PERSON_AND_ORGANIZATION_ROLE('design_owner');
#63=PERSON_AND_ORGANIZATION_ROLE('design_supplier');
#64=PERSON_AND_ORGANIZATION_ROLE('classification_officer');
#65=PERSON_AND_ORGANIZATION(#79,#72);
#66=PERSON_AND_ORGANIZATION(#79,#73);
#67=PERSON_AND_ORGANIZATION(#79,#74);
#68=PERSON_AND_ORGANIZATION(#79,#75);
#69=PERSON_AND_ORGANIZATION(#79,#76);
#70=PERSON_AND_ORGANIZATION(#79,#77);
#71=PERSON_AND_ORGANIZATION(#79,#78);
#72=ORGANIZATION(' ',' ',' ');
#73=ORGANIZATION(' ',' ',' ');
#74=ORGANIZATION(' ',' ',' ');
#75=ORGANIZATION(' ',' ',' ');
#76=ORGANIZATION(' ',' ',' ');
#77=ORGANIZATION(' ',' ',' ');
#78=ORGANIZATION(' ',' ',' ');
#79=PERSON(' ',' ',' ',(' '),$,$);
#80=SHAPE_DEFINITION_REPRESENTATION(#81,#94);
#81=PRODUCT_DEFINITION_SHAPE('','',#82);
#82=PRODUCT_DEFINITION(' ','',#84,#83);
#83=DESIGN_CONTEXT('',#93,'design');
#84=PRODUCT_DEFINITION_FORMATION_WITH_SPECIFIED_SOURCE(' ',' ',#86,.NOT_KNOWN.);
#85=PRODUCT_RELATED_PRODUCT_CATEGORY('detail','',(#86));
#86=PRODUCT('Admi8F1Axn3o','Admi8F1Axn3o',' ',(#91));
#87=PRODUCT_CATEGORY_RELATIONSHIP(' ',' ',#89,#90);
#88=PRODUCT_CATEGORY_RELATIONSHIP('','',#90,#85);
#89=PRODUCT_CATEGORY('part',' ');
#90=PRODUCT_CATEGORY(' ','');
#91=MECHANICAL_CONTEXT(' ',#93,'mechanical');
#92=APPLICATION_PROTOCOL_DEFINITION('international standard',
'config_control_design',1994,#93);
#93=APPLICATION_CONTEXT(
'configuration controlled 3D designs of mechanical parts and assemblies
');
#94=SHAPE_REPRESENTATION('Admi8F1Axn3o-None',(#265),#405);
#95=MANIFOLD_SOLID_BREP('',#96);
#96=CLOSED_SHELL('',(#110,#111,#112,#113,#114,#115,#116,#117,#118,#119,#120,
#121,#122,#123,#124));
#97=VERTEX_LOOP('',#232);
#98=CONICAL_SURFACE('',#287,2.49999999999999,45.);
#99=CONICAL_SURFACE('',#290,0.,59.9999943788385);
#100=CONICAL_SURFACE('',#294,1.5,45.);
#101=CONICAL_SURFACE('',#295,1.5,45.);
#102=CYLINDRICAL_SURFACE('',#272,25.);
#103=CYLINDRICAL_SURFACE('',#281,11.);
#104=CYLINDRICAL_SURFACE('',#289,2.49999999999999);
#105=CYLINDRICAL_SURFACE('',#293,1.5);
#106=TOROIDAL_SURFACE('',#270,24.,1.);
#107=TOROIDAL_SURFACE('',#274,24.,1.);
#108=TOROIDAL_SURFACE('',#279,14.,3.);
#109=TOROIDAL_SURFACE('',#283,8.99999999999999,2.);
#110=ADVANCED_FACE('',(#135,#128),#125,.T.);
#111=ADVANCED_FACE('',(#136,#137),#106,.T.);
#112=ADVANCED_FACE('',(#138,#139),#102,.T.);
#113=ADVANCED_FACE('',(#140,#141),#107,.T.);
#114=ADVANCED_FACE('',(#142,#129,#143),#126,.T.);
#115=ADVANCED_FACE('',(#144,#145),#108,.F.);
#116=ADVANCED_FACE('',(#146,#147),#103,.T.);
#117=ADVANCED_FACE('',(#148,#149),#109,.T.);
#118=ADVANCED_FACE('',(#130,#150),#127,.T.);
#119=ADVANCED_FACE('',(#131,#151),#98,.F.);
#120=ADVANCED_FACE('',(#152,#153),#104,.F.);
#121=ADVANCED_FACE('',(#132,#154),#99,.F.);
#122=ADVANCED_FACE('',(#155,#156),#105,.F.);
#123=ADVANCED_FACE('',(#133,#157),#100,.F.);
#124=ADVANCED_FACE('',(#134,#158),#101,.F.);
#125=PLANE('',#268);
#126=PLANE('',#277);
#127=PLANE('',#285);
#128=FACE_OUTER_BOUND('',#160,.T.);
#129=FACE_OUTER_BOUND('',#168,.T.);
#130=FACE_OUTER_BOUND('',#176,.T.);
#131=FACE_OUTER_BOUND('',#178,.T.);
#132=FACE_OUTER_BOUND('',#182,.T.);
#133=FACE_OUTER_BOUND('',#185,.T.);
#134=FACE_OUTER_BOUND('',#187,.T.);
#135=FACE_BOUND('',#159,.T.);
#136=FACE_BOUND('',#161,.T.);
#137=FACE_BOUND('',#162,.T.);
#138=FACE_BOUND('',#163,.T.);
#139=FACE_BOUND('',#164,.T.);
#140=FACE_BOUND('',#165,.T.);
#141=FACE_BOUND('',#166,.T.);
#142=FACE_BOUND('',#167,.T.);
#143=FACE_BOUND('',#169,.T.);
#144=FACE_BOUND('',#170,.T.);
#145=FACE_BOUND('',#171,.T.);
#146=FACE_BOUND('',#172,.T.);
#147=FACE_BOUND('',#173,.T.);
#148=FACE_BOUND('',#174,.T.);
#149=FACE_BOUND('',#175,.T.);
#150=FACE_BOUND('',#177,.T.);
#151=FACE_BOUND('',#179,.T.);
#152=FACE_BOUND('',#180,.T.);
#153=FACE_BOUND('',#181,.T.);
#154=FACE_BOUND('',#97,.T.);
#155=FACE_BOUND('',#183,.T.);
#156=FACE_BOUND('',#184,.T.);
#157=FACE_BOUND('',#186,.T.);
#158=FACE_BOUND('',#188,.T.);
#159=EDGE_LOOP('',(#189));
#160=EDGE_LOOP('',(#190));
#161=EDGE_LOOP('',(#191));
#162=EDGE_LOOP('',(#192));
#163=EDGE_LOOP('',(#193));
#164=EDGE_LOOP('',(#194));
#165=EDGE_LOOP('',(#195));
#166=EDGE_LOOP('',(#196));
#167=EDGE_LOOP('',(#197));
#168=EDGE_LOOP('',(#198));
#169=EDGE_LOOP('',(#199));
#170=EDGE_LOOP('',(#200));
#171=EDGE_LOOP('',(#201));
#172=EDGE_LOOP('',(#202));
#173=EDGE_LOOP('',(#203));
#174=EDGE_LOOP('',(#204));
#175=EDGE_LOOP('',(#205));
#176=EDGE_LOOP('',(#206));
#177=EDGE_LOOP('',(#207));
#178=EDGE_LOOP('',(#208));
#179=EDGE_LOOP('',(#209));
#180=EDGE_LOOP('',(#210));
#181=EDGE_LOOP('',(#211));
#182=EDGE_LOOP('',(#212));
#183=EDGE_LOOP('',(#213));
#184=EDGE_LOOP('',(#214));
#185=EDGE_LOOP('',(#215));
#186=EDGE_LOOP('',(#216));
#187=EDGE_LOOP('',(#217));
#188=EDGE_LOOP('',(#218));
#189=ORIENTED_EDGE('',*,*,#235,.T.);
#190=ORIENTED_EDGE('',*,*,#236,.F.);
#191=ORIENTED_EDGE('',*,*,#236,.T.);
#192=ORIENTED_EDGE('',*,*,#237,.F.);
#193=ORIENTED_EDGE('',*,*,#237,.T.);
#194=ORIENTED_EDGE('',*,*,#238,.F.);
#195=ORIENTED_EDGE('',*,*,#238,.T.);
#196=ORIENTED_EDGE('',*,*,#239,.F.);
#197=ORIENTED_EDGE('',*,*,#240,.T.);
#198=ORIENTED_EDGE('',*,*,#239,.T.);
#199=ORIENTED_EDGE('',*,*,#241,.F.);
#200=ORIENTED_EDGE('',*,*,#241,.T.);
#201=ORIENTED_EDGE('',*,*,#242,.F.);
#202=ORIENTED_EDGE('',*,*,#242,.T.);
#203=ORIENTED_EDGE('',*,*,#243,.F.);
#204=ORIENTED_EDGE('',*,*,#243,.T.);
#205=ORIENTED_EDGE('',*,*,#244,.F.);
#206=ORIENTED_EDGE('',*,*,#244,.T.);
#207=ORIENTED_EDGE('',*,*,#245,.F.);
#208=ORIENTED_EDGE('',*,*,#245,.T.);
#209=ORIENTED_EDGE('',*,*,#246,.F.);
#210=ORIENTED_EDGE('',*,*,#246,.T.);
#211=ORIENTED_EDGE('',*,*,#247,.F.);
#212=ORIENTED_EDGE('',*,*,#247,.T.);
#213=ORIENTED_EDGE('',*,*,#248,.T.);
#214=ORIENTED_EDGE('',*,*,#249,.T.);
#215=ORIENTED_EDGE('',*,*,#240,.F.);
#216=ORIENTED_EDGE('',*,*,#249,.F.);
#217=ORIENTED_EDGE('',*,*,#235,.F.);
#218=ORIENTED_EDGE('',*,*,#248,.F.);
#219=VERTEX_POINT('',#360);
#220=VERTEX_POINT('',#362);
#221=VERTEX_POINT('',#365);
#222=VERTEX_POINT('',#368);
#223=VERTEX_POINT('',#371);
#224=VERTEX_POINT('',#374);
#225=VERTEX_POINT('',#376);
#226=VERTEX_POINT('',#379);
#227=VERTEX_POINT('',#382);
#228=VERTEX_POINT('',#385);
#229=VERTEX_POINT('',#388);
#230=VERTEX_POINT('',#391);
#231=VERTEX_POINT('',#394);
#232=VERTEX_POINT('',#396);
#233=VERTEX_POINT('',#399);
#234=VERTEX_POINT('',#401);
#235=EDGE_CURVE('',#219,#219,#250,.T.);
#236=EDGE_CURVE('',#220,#220,#251,.T.);
#237=EDGE_CURVE('',#221,#221,#252,.T.);
#238=EDGE_CURVE('',#222,#222,#253,.T.);
#239=EDGE_CURVE('',#223,#223,#254,.T.);
#240=EDGE_CURVE('',#224,#224,#255,.T.);
#241=EDGE_CURVE('',#225,#225,#256,.T.);
#242=EDGE_CURVE('',#226,#226,#257,.T.);
#243=EDGE_CURVE('',#227,#227,#258,.T.);
#244=EDGE_CURVE('',#228,#228,#259,.T.);
#245=EDGE_CURVE('',#229,#229,#260,.T.);
#246=EDGE_CURVE('',#230,#230,#261,.T.);
#247=EDGE_CURVE('',#231,#231,#262,.T.);
#248=EDGE_CURVE('',#233,#233,#263,.T.);
#249=EDGE_CURVE('',#234,#234,#264,.T.);
#250=CIRCLE('',#266,2.);
#251=CIRCLE('',#267,24.);
#252=CIRCLE('',#269,25.);
#253=CIRCLE('',#271,25.);
#254=CIRCLE('',#273,24.);
#255=CIRCLE('',#275,2.);
#256=CIRCLE('',#276,14.);
#257=CIRCLE('',#278,11.);
#258=CIRCLE('',#280,11.);
#259=CIRCLE('',#282,8.99999999999999);
#260=CIRCLE('',#284,2.99999999999999);
#261=CIRCLE('',#286,2.49999999999999);
#262=CIRCLE('',#288,2.49999999999999);
#263=CIRCLE('',#291,1.5);
#264=CIRCLE('',#292,1.5);
#265=AXIS2_PLACEMENT_3D('',#358,#296,#297);
#266=AXIS2_PLACEMENT_3D('',#359,#298,#299);
#267=AXIS2_PLACEMENT_3D('',#361,#300,#301);
#268=AXIS2_PLACEMENT_3D('',#363,#302,#303);
#269=AXIS2_PLACEMENT_3D('',#364,#304,#305);
#270=AXIS2_PLACEMENT_3D('',#366,#306,#307);
#271=AXIS2_PLACEMENT_3D('',#367,#308,#309);
#272=AXIS2_PLACEMENT_3D('',#369,#310,#311);
#273=AXIS2_PLACEMENT_3D('',#370,#312,#313);
#274=AXIS2_PLACEMENT_3D('',#372,#314,#315);
#275=AXIS2_PLACEMENT_3D('',#373,#316,#317);
#276=AXIS2_PLACEMENT_3D('',#375,#318,#319);
#277=AXIS2_PLACEMENT_3D('',#377,#320,#321);
#278=AXIS2_PLACEMENT_3D('',#378,#322,#323);
#279=AXIS2_PLACEMENT_3D('',#380,#324,#325);
#280=AXIS2_PLACEMENT_3D('',#381,#326,#327);
#281=AXIS2_PLACEMENT_3D('',#383,#328,#329);
#282=AXIS2_PLACEMENT_3D('',#384,#330,#331);
#283=AXIS2_PLACEMENT_3D('',#386,#332,#333);
#284=AXIS2_PLACEMENT_3D('',#387,#334,#335);
#285=AXIS2_PLACEMENT_3D('',#389,#336,#337);
#286=AXIS2_PLACEMENT_3D('',#390,#338,#339);
#287=AXIS2_PLACEMENT_3D('',#392,#340,#341);
#288=AXIS2_PLACEMENT_3D('',#393,#342,#343);
#289=AXIS2_PLACEMENT_3D('',#395,#344,#345);
#290=AXIS2_PLACEMENT_3D('',#397,#346,#347);
#291=AXIS2_PLACEMENT_3D('',#398,#348,#349);
#292=AXIS2_PLACEMENT_3D('',#400,#350,#351);
#293=AXIS2_PLACEMENT_3D('',#402,#352,#353);
#294=AXIS2_PLACEMENT_3D('',#403,#354,#355);
#295=AXIS2_PLACEMENT_3D('',#404,#356,#357);
#296=DIRECTION('',(0.,0.,1.));
#297=DIRECTION('',(1.,0.,0.));
#298=DIRECTION('',(1.,0.,0.));
#299=DIRECTION('',(0.,0.,1.));
#300=DIRECTION('',(1.,0.,0.));
#301=DIRECTION('',(0.,0.,-1.));
#302=DIRECTION('',(-1.,0.,0.));
#303=DIRECTION('',(0.,0.,1.));
#304=DIRECTION('',(1.,0.,0.));
#305=DIRECTION('',(0.,0.,-1.));
#306=DIRECTION('',(1.,0.,0.));
#307=DIRECTION('',(0.,0.,-1.));
#308=DIRECTION('',(1.,0.,0.));
#309=DIRECTION('',(0.,0.,-1.));
#310=DIRECTION('',(1.,0.,0.));
#311=DIRECTION('',(0.,0.,-1.));
#312=DIRECTION('',(1.,0.,0.));
#313=DIRECTION('',(0.,0.,-1.));
#314=DIRECTION('',(1.,0.,0.));
#315=DIRECTION('',(0.,0.,-1.));
#316=DIRECTION('',(-1.,0.,0.));
#317=DIRECTION('',(0.,0.,-1.));
#318=DIRECTION('',(1.,0.,0.));
#319=DIRECTION('',(0.,0.,-1.));
#320=DIRECTION('',(1.,0.,0.));
#321=DIRECTION('',(0.,0.,-1.));
#322=DIRECTION('',(1.,0.,0.));
#323=DIRECTION('',(0.,0.,-1.));
#324=DIRECTION('',(1.,0.,0.));
#325=DIRECTION('',(0.,0.,-1.));
#326=DIRECTION('',(1.,0.,0.));
#327=DIRECTION('',(0.,0.,-1.));
#328=DIRECTION('',(1.,0.,0.));
#329=DIRECTION('',(0.,0.,-1.));
#330=DIRECTION('',(1.,0.,0.));
#331=DIRECTION('',(0.,0.,-1.));
#332=DIRECTION('',(1.,0.,0.));
#333=DIRECTION('',(0.,0.,-1.));
#334=DIRECTION('',(1.,0.,0.));
#335=DIRECTION('',(0.,0.,-1.));
#336=DIRECTION('',(1.,0.,0.));
#337=DIRECTION('',(0.,0.,-1.));
#338=DIRECTION('',(1.,0.,0.));
#339=DIRECTION('',(0.,0.,-1.));
#340=DIRECTION('',(1.,0.,0.));
#341=DIRECTION('',(0.,0.,-1.));
#342=DIRECTION('',(1.,0.,0.));
#343=DIRECTION('',(0.,0.,-1.));
#344=DIRECTION('',(1.,0.,0.));
#345=DIRECTION('',(0.,0.,-1.));
#346=DIRECTION('',(1.,0.,0.));
#347=DIRECTION('',(1.60246926839136E-017,0.,-1.));
#348=DIRECTION('',(-1.,0.,0.));
#349=DIRECTION('',(0.,0.,1.));
#350=DIRECTION('',(1.,0.,0.));
#351=DIRECTION('',(0.,0.,-1.));
#352=DIRECTION('',(1.,0.,0.));
#353=DIRECTION('',(0.,0.,-1.));
#354=DIRECTION('',(1.,0.,0.));
#355=DIRECTION('',(8.31420138261476E-017,0.,-1.));
#356=DIRECTION('',(-1.,0.,0.));
#357=DIRECTION('',(-2.77140046087159E-017,0.,1.));
#358=CARTESIAN_POINT('',(0.,0.,0.));
#359=CARTESIAN_POINT('',(152.,53.,0.));
#360=CARTESIAN_POINT('',(152.,53.,2.));
#361=CARTESIAN_POINT('',(152.,70.,0.));
#362=CARTESIAN_POINT('',(152.,70.,-24.));
#363=CARTESIAN_POINT('',(152.,94.,0.));
#364=CARTESIAN_POINT('',(153.,70.,0.));
#365=CARTESIAN_POINT('',(153.,70.,-25.));
#366=CARTESIAN_POINT('',(153.,70.,0.));
#367=CARTESIAN_POINT('',(164.,70.,0.));
#368=CARTESIAN_POINT('',(164.,70.,-25.));
#369=CARTESIAN_POINT('',(185.,70.,0.));
#370=CARTESIAN_POINT('',(165.,70.,0.));
#371=CARTESIAN_POINT('',(165.,70.,-24.));
#372=CARTESIAN_POINT('',(164.,70.,0.));
#373=CARTESIAN_POINT('',(165.,53.,0.));
#374=CARTESIAN_POINT('',(165.,53.,-2.));
#375=CARTESIAN_POINT('',(165.,70.,0.));
#376=CARTESIAN_POINT('',(165.,70.,-14.));
#377=CARTESIAN_POINT('',(165.,84.,0.));
#378=CARTESIAN_POINT('',(168.,70.,0.));
#379=CARTESIAN_POINT('',(168.,70.,-11.));
#380=CARTESIAN_POINT('',(168.,70.,0.));
#381=CARTESIAN_POINT('',(178.,70.,0.));
#382=CARTESIAN_POINT('',(178.,70.,-11.));
#383=CARTESIAN_POINT('',(185.,70.,0.));
#384=CARTESIAN_POINT('',(180.,70.,0.));
#385=CARTESIAN_POINT('',(180.,70.,-8.99999999999999));
#386=CARTESIAN_POINT('',(178.,70.,0.));
#387=CARTESIAN_POINT('',(180.,70.,0.));
#388=CARTESIAN_POINT('',(180.,70.,-2.99999999999999));
#389=CARTESIAN_POINT('',(180.,73.,0.));
#390=CARTESIAN_POINT('',(179.5,70.,0.));
#391=CARTESIAN_POINT('',(179.5,70.,-2.49999999999999));
#392=CARTESIAN_POINT('',(179.5,70.,0.));
#393=CARTESIAN_POINT('',(170.,70.,0.));
#394=CARTESIAN_POINT('',(170.,70.,-2.49999999999999));
#395=CARTESIAN_POINT('',(185.,70.,0.));
#396=CARTESIAN_POINT('',(168.556624,70.,0.));
#397=CARTESIAN_POINT('',(168.556624,70.,0.));
#398=CARTESIAN_POINT('',(152.5,53.,0.));
#399=CARTESIAN_POINT('',(152.5,53.,1.5));
#400=CARTESIAN_POINT('',(164.5,53.,0.));
#401=CARTESIAN_POINT('',(164.5,53.,-1.5));
#402=CARTESIAN_POINT('',(15.,53.,0.));
#403=CARTESIAN_POINT('',(164.5,53.,0.));
#404=CARTESIAN_POINT('',(152.5,53.,0.));
#405=(
GEOMETRIC_REPRESENTATION_CONTEXT(3)
GLOBAL_UNCERTAINTY_ASSIGNED_CONTEXT((#406))
GLOBAL_UNIT_ASSIGNED_CONTEXT((#412,#408,#407))
REPRESENTATION_CONTEXT('SAH_50_C_N','TOP_LEVEL_ASSEMBLY_PART')
);
#406=UNCERTAINTY_MEASURE_WITH_UNIT(LENGTH_MEASURE(2.E-005),#412,
'DISTANCE_ACCURACY_VALUE','Maximum Tolerance applied to model');
#407=(
NAMED_UNIT(*)
SI_UNIT($,.STERADIAN.)
SOLID_ANGLE_UNIT()
);
#408=(
CONVERSION_BASED_UNIT('DEGREE',#410)
NAMED_UNIT(#409)
PLANE_ANGLE_UNIT()
);
#409=DIMENSIONAL_EXPONENTS(0.,0.,0.,0.,0.,0.,0.);
#410=PLANE_ANGLE_MEASURE_WITH_UNIT(PLANE_ANGLE_MEASURE(0.0174532925),#411);
#411=(
NAMED_UNIT(*)
PLANE_ANGLE_UNIT()
SI_UNIT($,.RADIAN.)
);
#412=(
LENGTH_UNIT()
NAMED_UNIT(*)
SI_UNIT(.MILLI.,.METRE.)
);
ENDSEC;
END-ISO-10303-21;
